  0
SECTION
  2
HEADER
  9
$ACADVER
  1
AC1015
  9
$ACADMAINTVER
 70
     6
  9
$DWGCODEPAGE
  3
ANSI_1254
  9
$INSBASE
 10
0.0
 20
0.0
 30
0.0
  9
$EXTMIN
 10
0.0
 20
0.0
 30
0.0
  9
$EXTMAX
 10
279.4
 20
215.9
 30
0.0
  9
$LIMMIN
 10
0.0
 20
0.0
  9
$LIMMAX
 10
279.4
 20
215.9
  9
$ORTHOMODE
 70
     0
  9
$REGENMODE
 70
     1
  9
$FILLMODE
 70
     1
  9
$QTEXTMODE
 70
     0
  9
$MIRRTEXT
 70
     1
  9
$LTSCALE
 40
1.0
  9
$ATTMODE
 70
     1
  9
$TEXTSIZE
 40
3.5
  9
$TRACEWID
 40
1.0
  9
$TEXTSTYLE
  7
Standard
  9
$CLAYER
  8
0
  9
$CELTYPE
  6
ByLayer
  9
$CECOLOR
 62
   256
  9
$CELTSCALE
 40
1.0
  9
$DISPSILH
 70
     0
  9
$DIMSCALE
 40
1.0
  9
$DIMASZ
 40
3.5
  9
$DIMEXO
 40
1.0
  9
$DIMDLI
 40
3.75
  9
$DIMRND
 40
0.0
  9
$DIMDLE
 40
0.0
  9
$DIMEXE
 40
1.0
  9
$DIMTP
 40
0.0
  9
$DIMTM
 40
0.0
  9
$DIMTXT
 40
3.5
  9
$DIMCEN
 40
2.5
  9
$DIMTSZ
 40
0.0
  9
$DIMTOL
 70
     0
  9
$DIMLIM
 70
     0
  9
$DIMTIH
 70
     1
  9
$DIMTOH
 70
     1
  9
$DIMSE1
 70
     0
  9
$DIMSE2
 70
     0
  9
$DIMTAD
 70
     1
  9
$DIMZIN
 70
     0
  9
$DIMBLK
  1

  9
$DIMASO
 70
     1
  9
$DIMSHO
 70
     1
  9
$DIMPOST
  1

  9
$DIMAPOST
  1

  9
$DIMALT
 70
     0
  9
$DIMALTD
 70
     3
  9
$DIMALTF
 40
0.0393700787
  9
$DIMLFAC
 40
1.0
  9
$DIMTOFL
 70
     1
  9
$DIMTVP
 40
0.0
  9
$DIMTIX
 70
     0
  9
$DIMSOXD
 70
     0
  9
$DIMSAH
 70
     0
  9
$DIMBLK1
  1

  9
$DIMBLK2
  1

  9
$DIMSTYLE
  2
ISO-25
  9
$DIMCLRD
 70
     0
  9
$DIMCLRE
 70
     0
  9
$DIMCLRT
 70
     0
  9
$DIMTFAC
 40
1.0
  9
$DIMGAP
 40
1.524
  9
$DIMJUST
 70
     0
  9
$DIMSD1
 70
     0
  9
$DIMSD2
 70
     0
  9
$DIMTOLJ
 70
     0
  9
$DIMTZIN
 70
     0
  9
$DIMALTZ
 70
     0
  9
$DIMALTTZ
 70
     0
  9
$DIMUPT
 70
     0
  9
$DIMDEC
 70
     2
  9
$DIMTDEC
 70
     2
  9
$DIMALTU
 70
     2
  9
$DIMALTTD
 70
     3
  9
$DIMTXSTY
  7
Standard
  9
$DIMAUNIT
 70
     0
  9
$DIMADEC
 70
     2
  9
$DIMALTRND
 40
0.0
  9
$DIMAZIN
 70
     0
  9
$DIMDSEP
 70
    44
  9
$DIMATFIT
 70
     3
  9
$DIMFRAC
 70
     0
  9
$DIMLDRBLK
  1

  9
$DIMLUNIT
 70
     2
  9
$DIMLWD
 70
    -2
  9
$DIMLWE
 70
    -2
  9
$DIMTMOVE
 70
     0
  9
$LUNITS
 70
     2
  9
$LUPREC
 70
     2
  9
$SKETCHINC
 40
1.0
  9
$FILLETRAD
 40
10.0
  9
$AUNITS
 70
     0
  9
$AUPREC
 70
     2
  9
$MENU
  1
.
  9
$ELEVATION
 40
0.0
  9
$PELEVATION
 40
0.0
  9
$THICKNESS
 40
0.0
  9
$LIMCHECK
 70
     0
  9
$CHAMFERA
 40
0.0
  9
$CHAMFERB
 40
0.0
  9
$CHAMFERC
 40
0.0
  9
$CHAMFERD
 40
0.0
  9
$SKPOLY
 70
     0
  9
$TDCREATE
 40
2458985.698879537
  9
$TDUCREATE
 40
2458985.573879537
  9
$TDUPDATE
 40
2458985.698879792
  9
$TDUUPDATE
 40
2458985.573879792
  9
$TDINDWG
 40
0.0000000116
  9
$TDUSRTIMER
 40
0.0000000116
  9
$USRTIMER
 70
     1
  9
$ANGBASE
 50
0.0
  9
$ANGDIR
 70
     0
  9
$PDMODE
 70
     0
  9
$PDSIZE
 40
-1.0
  9
$PLINEWID
 40
0.0
  9
$SPLFRAME
 70
     0
  9
$SPLINETYPE
 70
     6
  9
$SPLINESEGS
 70
     8
  9
$HANDSEED
  5
EB
  9
$SURFTAB1
 70
     6
  9
$SURFTAB2
 70
     6
  9
$SURFTYPE
 70
     6
  9
$SURFU
 70
     6
  9
$SURFV
 70
     6
  9
$UCSBASE
  2

  9
$UCSNAME
  2

  9
$UCSORG
 10
0.0
 20
0.0
 30
0.0
  9
$UCSXDIR
 10
1.0
 20
0.0
 30
0.0
  9
$UCSYDIR
 10
0.0
 20
1.0
 30
0.0
  9
$UCSORTHOREF
  2

  9
$UCSORTHOVIEW
 70
     0
  9
$UCSORGTOP
 10
0.0
 20
0.0
 30
0.0
  9
$UCSORGBOTTOM
 10
0.0
 20
0.0
 30
0.0
  9
$UCSORGLEFT
 10
0.0
 20
0.0
 30
0.0
  9
$UCSORGRIGHT
 10
0.0
 20
0.0
 30
0.0
  9
$UCSORGFRONT
 10
0.0
 20
0.0
 30
0.0
  9
$UCSORGBACK
 10
0.0
 20
0.0
 30
0.0
  9
$PUCSBASE
  2

  9
$PUCSNAME
  2

  9
$PUCSORG
 10
0.0
 20
0.0
 30
0.0
  9
$PUCSXDIR
 10
1.0
 20
0.0
 30
0.0
  9
$PUCSYDIR
 10
0.0
 20
1.0
 30
0.0
  9
$PUCSORTHOREF
  2

  9
$PUCSORTHOVIEW
 70
     0
  9
$PUCSORGTOP
 10
0.0
 20
0.0
 30
0.0
  9
$PUCSORGBOTTOM
 10
0.0
 20
0.0
 30
0.0
  9
$PUCSORGLEFT
 10
0.0
 20
0.0
 30
0.0
  9
$PUCSORGRIGHT
 10
0.0
 20
0.0
 30
0.0
  9
$PUCSORGFRONT
 10
0.0
 20
0.0
 30
0.0
  9
$PUCSORGBACK
 10
0.0
 20
0.0
 30
0.0
  9
$USERI1
 70
     0
  9
$USERI2
 70
     0
  9
$USERI3
 70
     0
  9
$USERI4
 70
     0
  9
$USERI5
 70
     0
  9
$USERR1
 40
0.0
  9
$USERR2
 40
0.0
  9
$USERR3
 40
0.0
  9
$USERR4
 40
0.0
  9
$USERR5
 40
0.0
  9
$WORLDVIEW
 70
     1
  9
$SHADEDGE
 70
     3
  9
$SHADEDIF
 70
    70
  9
$TILEMODE
 70
     1
  9
$MAXACTVP
 70
    64
  9
$PINSBASE
 10
0.0
 20
0.0
 30
0.0
  9
$PLIMCHECK
 70
     0
  9
$PEXTMIN
 10
1.0000000000E+20
 20
1.0000000000E+20
 30
1.0000000000E+20
  9
$PEXTMAX
 10
-1.0000000000E+20
 20
-1.0000000000E+20
 30
-1.0000000000E+20
  9
$PLIMMIN
 10
0.0
 20
0.0
  9
$PLIMMAX
 10
420.0
 20
297.0
  9
$UNITMODE
 70
     0
  9
$VISRETAIN
 70
     1
  9
$PLINEGEN
 70
     0
  9
$PSLTSCALE
 70
     1
  9
$TREEDEPTH
 70
  3020
  9
$CMLSTYLE
  2
Standard
  9
$CMLJUST
 70
     0
  9
$CMLSCALE
 40
20.0
  9
$PROXYGRAPHICS
 70
     1
  9
$MEASUREMENT
 70
     1
  9
$CELWEIGHT
370
    -1
  9
$ENDCAPS
280
     0
  9
$JOINSTYLE
280
     0
  9
$LWDISPLAY
290
     1
  9
$INSUNITS
 70
     4
  9
$HYPERLINKBASE
  1

  9
$STYLESHEET
  1

  9
$XEDIT
290
     1
  9
$CEPSNTYPE
380
     0
  9
$PSTYLEMODE
290
     1
  9
$FINGERPRINTGUID
  2
{71246de1-0d36-42eb-ae0c-7a1f6c351ae6}
  9
$VERSIONGUID
  2
{FAEB1C32-E019-11D5-929B-00C0DF256EC4}
  9
$EXTNAMES
290
     1
  9
$PSVPSCALE
 40
0.0
  9
$OLESTARTUP
290
     0
  0
ENDSEC
  0
SECTION
  2
CLASSES
  0
CLASS
  1
ACDBDICTIONARYWDFLT
  2
AcDbDictionaryWithDefault
  3
ObjectDBX Classes
 90
        0
280
     0
281
     0
  0
CLASS
  1
VISUALSTYLE
  2
AcDbVisualStyle
  3
ObjectDBX Classes
 90
     4095
280
     0
281
     0
  0
CLASS
  1
MATERIAL
  2
AcDbMaterial
  3
ObjectDBX Classes
 90
     1153
280
     0
281
     0
  0
CLASS
  1
SCALE
  2
AcDbScale
  3
ObjectDBX Classes
 90
     1153
280
     0
281
     0
  0
CLASS
  1
TABLESTYLE
  2
AcDbTableStyle
  3
ObjectDBX Classes
 90
     4095
280
     0
281
     0
  0
CLASS
  1
MLEADERSTYLE
  2
AcDbMLeaderStyle
  3
ACDB_MLEADERSTYLE_CLASS
 90
     4095
280
     0
281
     0
  0
CLASS
  1
SUN
  2
AcDbSun
  3
SCENEOE
 90
     1153
280
     0
281
     0
  0
CLASS
  1
ACDBPLACEHOLDER
  2
AcDbPlaceHolder
  3
ObjectDBX Classes
 90
        0
280
     0
281
     0
  0
CLASS
  1
LAYOUT
  2
AcDbLayout
  3
ObjectDBX Classes
 90
        0
280
     0
281
     0
  0
ENDSEC
  0
SECTION
  2
TABLES
  0
TABLE
  2
VPORT
  5
8
330
0
100
AcDbSymbolTable
 70
     1
  0
VPORT
  5
29
330
8
100
AcDbSymbolTableRecord
100
AcDbViewportTableRecord
  2
*Active
 70
     0
 10
0.0
 20
0.0
 11
1.0
 21
1.0
 12
139.7
 22
107.95
 13
0.0
 23
0.0
 14
10.0
 24
10.0
 15
10.0
 25
10.0
 16
0.0
 26
0.0
 36
1.0
 17
0.0
 27
0.0
 37
0.0
 40
215.9
 41
1.2941176471
 42
50.0
 43
0.0
 44
0.0
 50
0.0
 51
0.0
 71
     0
 72
  2000
 73
     1
 74
     3
 75
     0
 76
     0
 77
     0
 78
     0
281
     0
 65
     1
110
0.0
120
0.0
130
0.0
111
1.0
121
0.0
131
0.0
112
0.0
122
1.0
132
0.0
 79
     0
146
0.0
  0
ENDTAB
  0
TABLE
  2
LTYPE
  5
5
330
0
100
AcDbSymbolTable
 70
     6
  0
LTYPE
  5
14
330
5
100
AcDbSymbolTableRecord
100
AcDbLinetypeTableRecord
  2
ByBlock
 70
     0
  3

 72
    65
 73
     0
 40
0.0
  0
LTYPE
  5
15
330
5
100
AcDbSymbolTableRecord
100
AcDbLinetypeTableRecord
  2
ByLayer
 70
     0
  3

 72
    65
 73
     0
 40
0.0
  0
LTYPE
  5
16
330
5
100
AcDbSymbolTableRecord
100
AcDbLinetypeTableRecord
  2
Continuous
 70
     0
  3
Solid line
 72
    65
 73
     0
 40
0.0
  0
LTYPE
  5
6E
330
5
100
AcDbSymbolTableRecord
100
AcDbLinetypeTableRecord
  2
HIDDEN
 70
     0
  3
Hidden __ __ __ __ __ __ __ __ __ __ __ __ __ __
 72
    65
 73
     2
 40
1.905
 49
1.27
 74
     0
 49
-0.635
 74
     0
  0
LTYPE
  5
6F
330
5
100
AcDbSymbolTableRecord
100
AcDbLinetypeTableRecord
  2
PHANTOM
 70
     0
  3
Phantom ______  __  __  ______  __  __  ______
 72
    65
 73
     6
 40
12.7
 49
6.35
 74
     0
 49
-1.27
 74
     0
 49
1.27
 74
     0
 49
-1.27
 74
     0
 49
1.27
 74
     0
 49
-1.27
 74
     0
  0
LTYPE
  5
70
330
5
100
AcDbSymbolTableRecord
100
AcDbLinetypeTableRecord
  2
CENTER
 70
     0
  3
Center ____ _ ____ _ ____ _ ____ _ ____ _ ____
 72
    65
 73
     4
 40
10.16
 49
6.35
 74
     0
 49
-1.27
 74
     0
 49
1.27
 74
     0
 49
-1.27
 74
     0
  0
LTYPE
  5
71
330
5
100
AcDbSymbolTableRecord
100
AcDbLinetypeTableRecord
  2
CENTERX2
 70
     0
  3
Center (2x) ________  __  ________  __  _____
 72
    65
 73
     4
 40
20.32
 49
12.7
 74
     0
 49
-2.54
 74
     0
 49
2.54
 74
     0
 49
-2.54
 74
     0
  0
LTYPE
  5
72
330
5
100
AcDbSymbolTableRecord
100
AcDbLinetypeTableRecord
  2
DOT2
 70
     0
  3
Dot (.5x) ........................................
 72
    65
 73
     2
 40
0.635
 49
0.0
 74
     0
 49
-0.635
 74
     0
  0
ENDTAB
  0
TABLE
  2
LAYER
  5
2
330
0
100
AcDbSymbolTable
 70
    17
  0
LAYER
  5
10
330
2
100
AcDbSymbolTableRecord
100
AcDbLayerTableRecord
  2
0
 70
     0
 62
     7
  6
Continuous
370
    -3
390
F
  0
LAYER
  5
73
330
2
100
AcDbSymbolTableRecord
100
AcDbLayerTableRecord
  2
FORMAT
 70
     0
 62
     7
  6
Continuous
370
    -3
390
F
  0
LAYER
  5
74
330
2
100
AcDbSymbolTableRecord
100
AcDbLayerTableRecord
  2
YARDIMCI_GEOMETRI
 70
     0
 62
    -6
  6
Continuous
290
     0
370
    -3
390
F
  0
LAYER
  5
75
330
2
100
AcDbSymbolTableRecord
100
AcDbLayerTableRecord
  2
SAYFA_CERCEVESI
 70
     0
 62
     7
  6
Continuous
370
    25
390
F
  0
LAYER
  5
76
330
2
100
AcDbSymbolTableRecord
100
AcDbLayerTableRecord
  2
ANTET
 70
     0
 62
     7
  6
Continuous
370
    -3
390
F
  0
LAYER
  5
77
330
2
100
AcDbSymbolTableRecord
100
AcDbLayerTableRecord
  2
OLCU
 70
     0
 62
   150
  6
Continuous
370
    -3
390
F
  0
LAYER
  5
78
330
2
100
AcDbSymbolTableRecord
100
AcDbLayerTableRecord
  2
METIN
 70
     0
 62
    96
  6
Continuous
370
    -3
390
F
  0
LAYER
  5
79
330
2
100
AcDbSymbolTableRecord
100
AcDbLayerTableRecord
  2
BALON
 70
     0
 62
     5
  6
Continuous
370
    -3
390
F
  0
LAYER
  5
7A
330
2
100
AcDbSymbolTableRecord
100
AcDbLayerTableRecord
  2
VURGU
 70
     0
 62
     7
  6
Continuous
370
    -3
390
F
  0
LAYER
  5
7B
330
2
100
AcDbSymbolTableRecord
100
AcDbLayerTableRecord
  2
SILIK
 70
     0
 62
     7
  6
Continuous
370
    -3
390
F
  0
LAYER
  5
7C
330
2
100
AcDbSymbolTableRecord
100
AcDbLayerTableRecord
  2
MODEL
 70
     0
 62
     7
  6
Continuous
370
    -3
390
F
  0
LAYER
  5
7D
330
2
100
AcDbSymbolTableRecord
100
AcDbLayerTableRecord
  2
DETAYLANDıRMA
 70
     0
 62
   190
  6
Continuous
370
    -3
390
F
  0
LAYER
  5
7E
330
2
100
AcDbSymbolTableRecord
100
AcDbLayerTableRecord
  2
TOLERANS
 70
     0
 62
   230
  6
Continuous
370
    -3
390
F
  0
LAYER
  5
7F
330
2
100
AcDbSymbolTableRecord
100
AcDbLayerTableRecord
  2
MERKEZ_CIZGILERI
 70
     0
 62
    30
  6
Continuous
370
    -3
390
F
  0
LAYER
  5
80
330
2
100
AcDbSymbolTableRecord
100
AcDbLayerTableRecord
  2
KESIT-DETAY_CIZGILERI
 70
     0
 62
     7
  6
Continuous
370
    -3
390
F
  0
LAYER
  5
81
330
2
100
AcDbSymbolTableRecord
100
AcDbLayerTableRecord
  2
\U+041E\U+0421\U+0415\U+0412\U+042B\U+0415
 70
     0
 62
     7
  6
Continuous
370
    -3
390
F
  0
LAYER
  5
82
330
2
100
AcDbSymbolTableRecord
100
AcDbLayerTableRecord
  2
\U+0412\U+041E\U+0414\U+042F\U+041D\U+042B\U+0415_\U+0417\U+041D\U+0410\U+041A\U+0418
 70
     0
 62
    11
  6
Continuous
370
    -3
390
F
  0
ENDTAB
  0
TABLE
  2
STYLE
  5
3
330
0
100
AcDbSymbolTable
 70
     1
  0
STYLE
  5
11
330
3
100
AcDbSymbolTableRecord
100
AcDbTextStyleTableRecord
  2
Standard
 70
     0
 40
0.0
 41
1.0
 50
0.0
 71
     0
 42
3.5
  3
txt
  4

  0
ENDTAB
  0
TABLE
  2
VIEW
  5
6
330
0
100
AcDbSymbolTable
 70
     0
  0
ENDTAB
  0
TABLE
  2
UCS
  5
7
330
0
100
AcDbSymbolTable
 70
     0
  0
ENDTAB
  0
TABLE
  2
APPID
  5
9
330
0
100
AcDbSymbolTable
 70
     1
  0
APPID
  5
12
330
9
100
AcDbSymbolTableRecord
100
AcDbRegAppTableRecord
  2
ACAD
 70
     0
  0
ENDTAB
  0
TABLE
  2
DIMSTYLE
  5
A
330
0
100
AcDbSymbolTable
 70
     1
100
AcDbDimStyleTable
  0
DIMSTYLE
105
27
330
A
100
AcDbSymbolTableRecord
100
AcDbDimStyleTableRecord
  2
ISO-25
 70
     0
 41
2.5
 42
0.625
 43
3.75
 44
1.25
 73
     0
 74
     0
 77
     1
 78
     8
140
2.5
141
2.5
143
0.0393700787
147
0.625
171
     3
172
     1
178
     0
271
     2
272
     2
274
     3
278
    44
283
     0
284
     8
340
11
  0
ENDTAB
  0
TABLE
  2
BLOCK_RECORD
  5
1
330
0
100
AcDbSymbolTable
 70
     2
  0
BLOCK_RECORD
  5
1F
330
1
100
AcDbSymbolTableRecord
100
AcDbBlockTableRecord
  2
*Model_Space
340
22
  0
BLOCK_RECORD
  5
1B
330
1
100
AcDbSymbolTableRecord
100
AcDbBlockTableRecord
  2
*Paper_Space
340
1E
  0
BLOCK_RECORD
  5
23
330
1
100
AcDbSymbolTableRecord
100
AcDbBlockTableRecord
  2
*Paper_Space0
340
26
  0
BLOCK_RECORD
  5
88
330
1
100
AcDbSymbolTableRecord
100
AcDbBlockTableRecord
  2
SW_CENTERMARKSYMBOL_0
340
0
102
{BLKREFS
331
93
102
}
  0
ENDTAB
  0
ENDSEC
  0
SECTION
  2
BLOCKS
  0
BLOCK
  5
20
330
1F
100
AcDbEntity
  8
0
100
AcDbBlockBegin
  2
*Model_Space
 70
     0
 10
0.0
 20
0.0
 30
0.0
  3
*Model_Space
  1

  0
ENDBLK
  5
21
330
1F
100
AcDbEntity
  8
0
100
AcDbBlockEnd
  0
BLOCK
  5
1C
330
1B
100
AcDbEntity
 67
     1
  8
0
100
AcDbBlockBegin
  2
*Paper_Space
 70
     0
 10
0.0
 20
0.0
 30
0.0
  3
*Paper_Space
  1

  0
ENDBLK
  5
1D
330
1B
100
AcDbEntity
 67
     1
  8
0
100
AcDbBlockEnd
  0
BLOCK
  5
24
330
23
100
AcDbEntity
  8
0
100
AcDbBlockBegin
  2
*Paper_Space0
 70
     0
 10
0.0
 20
0.0
 30
0.0
  3
*Paper_Space0
  1

  0
ENDBLK
  5
25
330
23
100
AcDbEntity
  8
0
100
AcDbBlockEnd
  0
BLOCK
  5
89
330
88
100
AcDbEntity
  8
0
100
AcDbBlockBegin
  2
SW_CENTERMARKSYMBOL_0
 70
     0
 10
0.0
 20
0.0
 30
0.0
  3
SW_CENTERMARKSYMBOL_0
  1

  0
LINE
  5
8B
330
88
100
AcDbEntity
  8
FORMAT
 62
     0
100
AcDbLine
 10
0.0
 20
0.0
 30
0.0
 11
0.0
 21
2.5
 31
0.0
  0
LINE
  5
8C
330
88
100
AcDbEntity
  8
FORMAT
 62
     0
100
AcDbLine
 10
0.0
 20
0.0
 30
0.0
 11
-2.5
 21
0.0
 31
0.0
  0
LINE
  5
8D
330
88
100
AcDbEntity
  8
FORMAT
 62
     0
100
AcDbLine
 10
0.0
 20
0.0
 30
0.0
 11
0.0
 21
-2.5
 31
0.0
  0
LINE
  5
8E
330
88
100
AcDbEntity
  8
FORMAT
 62
     0
100
AcDbLine
 10
0.0
 20
0.0
 30
0.0
 11
2.5
 21
0.0
 31
0.0
  0
LINE
  5
8F
330
88
100
AcDbEntity
  8
FORMAT
 62
     0
100
AcDbLine
 10
0.0
 20
5.0
 30
0.0
 11
0.0
 21
47.5
 31
0.0
  0
LINE
  5
90
330
88
100
AcDbEntity
  8
FORMAT
 62
     0
100
AcDbLine
 10
-5.0
 20
0.0
 30
0.0
 11
-47.5
 21
0.0
 31
0.0
  0
LINE
  5
91
330
88
100
AcDbEntity
  8
FORMAT
 62
     0
100
AcDbLine
 10
0.0
 20
-5.0
 30
0.0
 11
0.0
 21
-47.5
 31
0.0
  0
LINE
  5
92
330
88
100
AcDbEntity
  8
FORMAT
 62
     0
100
AcDbLine
 10
5.0
 20
0.0
 30
0.0
 11
47.5
 21
0.0
 31
0.0
  0
ENDBLK
  5
8A
330
88
100
AcDbEntity
  8
0
100
AcDbBlockEnd
  0
ENDSEC
  0
SECTION
  2
ENTITIES
  0
CIRCLE
  5
83
330
1F
100
AcDbEntity
  8
0
  6
Continuous
 62
     7
370
    25
100
AcDbCircle
 10
139.395004093
 20
107.5851680021
 30
0.0
 40
45.0
  0
CIRCLE
  5
84
330
1F
100
AcDbEntity
  8
0
  6
Continuous
 62
     7
370
    25
100
AcDbCircle
 10
139.395004093
 20
107.5851680021
 30
0.0
 40
36.80000000000001
  0
CIRCLE
  5
85
330
1F
100
AcDbEntity
  8
0
  6
Continuous
 62
     7
370
    25
100
AcDbCircle
 10
139.395004093
 20
107.5851680021
 30
0.0
 40
36.5087095579742
  0
CIRCLE
  5
86
330
1F
100
AcDbEntity
  8
0
  6
Continuous
 62
     7
370
    25
100
AcDbCircle
 10
139.395004093
 20
107.5851680021
 30
0.0
 40
20.69129044202583
  0
CIRCLE
  5
87
330
1F
100
AcDbEntity
  8
0
  6
Continuous
 62
     7
370
    25
100
AcDbCircle
 10
139.395004093
 20
107.5851680021
 30
0.0
 40
20.40000000000001
  0
INSERT
  5
93
330
1F
100
AcDbEntity
  8
FORMAT
 62
     7
100
AcDbBlockReference
  2
SW_CENTERMARKSYMBOL_0
 10
139.395004093
 20
107.5851680021
 30
0.0
  0
ARC
  5
94
330
1F
100
AcDbEntity
  8
0
  6
Continuous
 62
     7
370
    25
100
AcDbCircle
 10
-64.0476208695
 20
150.5851680021
 30
0.0
 40
2.0
100
AcDbArc
 50
70.3461759419
 51
90.0
  0
ARC
  5
95
330
1F
100
AcDbEntity
  8
0
  6
Continuous
 62
     7
370
    25
100
AcDbCircle
 10
-64.0476208695
 20
64.5851680021
 30
0.0
 40
2.000000000000003
100
AcDbArc
 50
270.0
 51
289.6538240581
  0
LINE
  5
96
330
1F
100
AcDbEntity
  8
0
  6
Continuous
 62
     7
370
    25
100
AcDbLine
 10
-64.047620894
 20
152.5851697903
 30
0.0
 11
-142.7011967465
 21
152.5851697903
 31
0.0
  0
LINE
  5
97
330
1F
100
AcDbEntity
  8
0
  6
Continuous
 62
     7
370
    25
100
AcDbLine
 10
-142.7011967465
 20
62.585166214
 30
0.0
 11
-64.047620894
 21
62.585166214
 31
0.0
  0
LINE
  5
98
330
1F
100
AcDbEntity
  8
0
  6
Continuous
 62
     7
370
    25
100
AcDbLine
 10
-63.3749489501
 20
62.7016858439
 30
0.0
 11
-8.0274374053
 21
82.4686517249
 31
0.0
  0
LINE
  5
99
330
1F
100
AcDbEntity
  8
0
  6
Continuous
 62
     7
370
    25
100
AcDbLine
 10
-8.0274374053
 20
132.7016842793
 30
0.0
 11
-63.3749489501
 21
152.4686501603
 31
0.0
  0
ARC
  5
9A
330
1F
100
AcDbEntity
  8
0
  6
Continuous
 62
     7
370
    25
100
AcDbCircle
 10
-7.3547658716
 20
134.5851680021
 30
0.0
 40
2.0
100
AcDbArc
 50
250.3461759419
 51
270.0
  0
ARC
  5
9B
330
1F
100
AcDbEntity
  8
0
  6
Continuous
 62
     7
370
    25
100
AcDbCircle
 10
-7.3547658716
 20
80.5851680021
 30
0.0
 40
2.000000000000003
100
AcDbArc
 50
90.0
 51
109.6538240581
  0
LINE
  5
9C
330
1F
100
AcDbEntity
  8
0
  6
Continuous
 62
     7
370
    25
100
AcDbLine
 10
47.2988083199
 20
132.5851683746
 30
0.0
 11
-7.3547654614
 21
132.5851683746
 31
0.0
  0
LINE
  5
9D
330
1F
100
AcDbEntity
  8
0
  6
Continuous
 62
     7
370
    25
100
AcDbLine
 10
-7.3547654614
 20
82.5851676296
 30
0.0
 11
47.2988083199
 21
82.5851676296
 31
0.0
  0
LINE
  5
9E
330
1F
100
AcDbEntity
  8
0
  6
Continuous
 62
     7
370
    25
100
AcDbLine
 10
-142.7011967465
 20
152.5851697903
 30
0.0
 11
-142.7011967465
 21
62.585166214
 31
0.0
  0
LINE
  5
9F
330
1F
100
AcDbEntity
  8
0
  6
Continuous
 62
     7
370
    25
100
AcDbLine
 10
47.2988083199
 20
132.5851683746
 30
0.0
 11
47.2988083199
 21
82.5851676296
 31
0.0
  0
LINE
  5
A0
330
1F
100
AcDbEntity
  8
0
  6
Continuous
 62
     1
370
    25
100
AcDbLine
 10
-63.3749489501
 20
152.4686501603
 30
0.0
 11
-63.3749489501
 21
62.7016858439
 31
0.0
  0
LINE
  5
A1
330
1F
100
AcDbEntity
  8
0
  6
Continuous
 62
     1
370
    25
100
AcDbLine
 10
-64.047620894
 20
152.5851697903
 30
0.0
 11
-64.047620894
 21
62.585166214
 31
0.0
  0
LINE
  5
A2
330
1F
100
AcDbEntity
  8
0
  6
Continuous
 62
     1
370
    25
100
AcDbLine
 10
-8.0274374053
 20
132.7016842793
 30
0.0
 11
-8.0274374053
 21
82.4686517249
 31
0.0
  0
LINE
  5
A3
330
1F
100
AcDbEntity
  8
0
  6
Continuous
 62
     1
370
    25
100
AcDbLine
 10
-7.3547654614
 20
132.5851683746
 30
0.0
 11
-7.3547654614
 21
82.5851676296
 31
0.0
  0
ARC
  5
A4
330
1F
100
AcDbEntity
  8
0
  6
Continuous
 62
     7
370
    25
100
AcDbCircle
 10
375.3125562088
 20
64.5851680021
 30
0.0
 40
2.0
100
AcDbArc
 50
250.3461759419
 51
270.0
  0
ARC
  5
A5
330
1F
100
AcDbEntity
  8
0
  6
Continuous
 62
     7
370
    25
100
AcDbCircle
 10
375.3125562088
 20
150.5851680021
 30
0.0
 40
2.0
100
AcDbArc
 50
90.0
 51
109.6538240581
  0
LINE
  5
A6
330
1F
100
AcDbEntity
  8
0
  6
Continuous
 62
     7
370
    25
100
AcDbLine
 10
375.3125562334
 20
62.585166214
 30
0.0
 11
453.9661320859
 21
62.585166214
 31
0.0
  0
LINE
  5
A7
330
1F
100
AcDbEntity
  8
0
  6
Continuous
 62
     7
370
    25
100
AcDbLine
 10
453.9661320859
 20
152.5851697903
 30
0.0
 11
375.3125562334
 21
152.5851697903
 31
0.0
  0
LINE
  5
A8
330
1F
100
AcDbEntity
  8
0
  6
Continuous
 62
     7
370
    25
100
AcDbLine
 10
374.6398842895
 20
152.4686501603
 30
0.0
 11
319.2923727447
 21
132.7016842793
 31
0.0
  0
LINE
  5
A9
330
1F
100
AcDbEntity
  8
0
  6
Continuous
 62
     7
370
    25
100
AcDbLine
 10
319.2923727447
 20
82.4686517249
 30
0.0
 11
374.6398842895
 21
62.7016858439
 31
0.0
  0
ARC
  5
AA
330
1F
100
AcDbEntity
  8
0
  6
Continuous
 62
     7
370
    25
100
AcDbCircle
 10
318.619701211
 20
80.5851680021
 30
0.0
 40
2.0
100
AcDbArc
 50
70.3461759419
 51
90.0
  0
ARC
  5
AB
330
1F
100
AcDbEntity
  8
0
  6
Continuous
 62
     7
370
    25
100
AcDbCircle
 10
318.619701211
 20
134.5851680021
 30
0.0
 40
2.0
100
AcDbArc
 50
270.0
 51
289.6538240581
  0
LINE
  5
AC
330
1F
100
AcDbEntity
  8
0
  6
Continuous
 62
     7
370
    25
100
AcDbLine
 10
263.9661270195
 20
82.5851676296
 30
0.0
 11
318.6197008008
 21
82.5851676296
 31
0.0
  0
LINE
  5
AD
330
1F
100
AcDbEntity
  8
0
  6
Continuous
 62
     7
370
    25
100
AcDbLine
 10
318.6197008008
 20
132.5851683746
 30
0.0
 11
263.9661270195
 21
132.5851683746
 31
0.0
  0
LINE
  5
AE
330
1F
100
AcDbEntity
  8
0
  6
Continuous
 62
     7
370
    25
100
AcDbLine
 10
453.9661320859
 20
107.5851680021
 30
0.0
 11
453.9661320859
 21
152.5851697903
 31
0.0
  0
LINE
  5
AF
330
1F
100
AcDbEntity
  8
0
  6
Continuous
 62
     7
370
    25
100
AcDbLine
 10
453.9661320859
 20
62.585166214
 30
0.0
 11
453.9661320859
 21
107.5851680021
 31
0.0
  0
LINE
  5
B0
330
1F
100
AcDbEntity
  8
0
  6
Continuous
 62
     7
370
    25
100
AcDbLine
 10
263.9661270195
 20
107.5851680021
 30
0.0
 11
263.9661270195
 21
132.5851683746
 31
0.0
  0
LINE
  5
B1
330
1F
100
AcDbEntity
  8
0
  6
Continuous
 62
     7
370
    25
100
AcDbLine
 10
263.9661270195
 20
82.5851676296
 30
0.0
 11
263.9661270195
 21
107.5851680021
 31
0.0
  0
LINE
  5
B2
330
1F
100
AcDbEntity
  8
0
  6
Continuous
 62
     1
370
    25
100
AcDbLine
 10
374.6398842895
 20
107.5851680021
 30
0.0
 11
374.6398842895
 21
152.4686501603
 31
0.0
  0
LINE
  5
B3
330
1F
100
AcDbEntity
  8
0
  6
Continuous
 62
     1
370
    25
100
AcDbLine
 10
374.6398842895
 20
62.7016858439
 30
0.0
 11
374.6398842895
 21
107.5851680021
 31
0.0
  0
LINE
  5
B4
330
1F
100
AcDbEntity
  8
0
  6
Continuous
 62
     1
370
    25
100
AcDbLine
 10
375.3125562334
 20
107.5851680021
 30
0.0
 11
375.3125562334
 21
152.5851697903
 31
0.0
  0
LINE
  5
B5
330
1F
100
AcDbEntity
  8
0
  6
Continuous
 62
     1
370
    25
100
AcDbLine
 10
375.3125562334
 20
62.585166214
 30
0.0
 11
375.3125562334
 21
107.5851680021
 31
0.0
  0
LINE
  5
B6
330
1F
100
AcDbEntity
  8
0
  6
Continuous
 62
     1
370
    25
100
AcDbLine
 10
319.2923727447
 20
107.5851680021
 30
0.0
 11
319.2923727447
 21
132.7016842793
 31
0.0
  0
LINE
  5
B7
330
1F
100
AcDbEntity
  8
0
  6
Continuous
 62
     1
370
    25
100
AcDbLine
 10
319.2923727447
 20
82.4686517249
 30
0.0
 11
319.2923727447
 21
107.5851680021
 31
0.0
  0
LINE
  5
B8
330
1F
100
AcDbEntity
  8
0
  6
Continuous
 62
     1
370
    25
100
AcDbLine
 10
318.6197008008
 20
107.5851680021
 30
0.0
 11
318.6197008008
 21
132.5851683746
 31
0.0
  0
LINE
  5
B9
330
1F
100
AcDbEntity
  8
0
  6
Continuous
 62
     1
370
    25
100
AcDbLine
 10
318.6197008008
 20
82.5851676296
 30
0.0
 11
318.6197008008
 21
107.5851680021
 31
0.0
  0
ARC
  5
BA
330
1F
100
AcDbEntity
  8
0
  6
Continuous
 62
     7
370
    25
100
AcDbCircle
 10
182.395004093
 20
313.4708679029
 30
0.0
 40
2.000000000000039
100
AcDbArc
 50
340.3461759419
 51
0.0
  0
ARC
  5
BB
330
1F
100
AcDbEntity
  8
0
  6
Continuous
 62
     7
370
    25
100
AcDbCircle
 10
96.395004093
 20
313.4708679029
 30
0.0
 40
2.0
100
AcDbArc
 50
180.0
 51
199.6538240581
  0
LINE
  5
BC
330
1F
100
AcDbEntity
  8
0
  6
Continuous
 62
     7
370
    25
100
AcDbLine
 10
184.3950058812
 20
313.4708679274
 30
0.0
 11
184.3950058812
 21
392.12444378
 31
0.0
  0
LINE
  5
BD
330
1F
100
AcDbEntity
  8
0
  6
Continuous
 62
     7
370
    25
100
AcDbLine
 10
94.3950023049
 20
392.12444378
 30
0.0
 11
94.3950023049
 21
313.4708679274
 31
0.0
  0
LINE
  5
BE
330
1F
100
AcDbEntity
  8
0
  6
Continuous
 62
     7
370
    25
100
AcDbLine
 10
94.5115219349
 20
312.7981959835
 30
0.0
 11
114.2784878159
 21
257.4506844387
 31
0.0
  0
LINE
  5
BF
330
1F
100
AcDbEntity
  8
0
  6
Continuous
 62
     7
370
    25
100
AcDbLine
 10
164.5115203702
 20
257.4506844387
 30
0.0
 11
184.2784862512
 21
312.7981959835
 31
0.0
  0
ARC
  5
C0
330
1F
100
AcDbEntity
  8
0
  6
Continuous
 62
     7
370
    25
100
AcDbCircle
 10
166.395004093
 20
256.778012905
 30
0.0
 40
2.000000000000012
100
AcDbArc
 50
160.3461759419
 51
180.0
  0
ARC
  5
C1
330
1F
100
AcDbEntity
  8
0
  6
Continuous
 62
     7
370
    25
100
AcDbCircle
 10
112.395004093
 20
256.778012905
 30
0.0
 40
2.0
100
AcDbArc
 50
0.0
 51
19.6538240581
  0
LINE
  5
C2
330
1F
100
AcDbEntity
  8
0
  6
Continuous
 62
     7
370
    25
100
AcDbLine
 10
164.3950044656
 20
202.1244387136
 30
0.0
 11
164.3950044656
 21
256.7780124948
 31
0.0
  0
LINE
  5
C3
330
1F
100
AcDbEntity
  8
0
  6
Continuous
 62
     7
370
    25
100
AcDbLine
 10
114.3950037205
 20
256.7780124948
 30
0.0
 11
114.3950037205
 21
202.1244387136
 31
0.0
  0
LINE
  5
C4
330
1F
100
AcDbEntity
  8
0
  6
Continuous
 62
     7
370
    25
100
AcDbLine
 10
184.3950058812
 20
392.12444378
 30
0.0
 11
94.3950023049
 21
392.12444378
 31
0.0
  0
LINE
  5
C5
330
1F
100
AcDbEntity
  8
0
  6
Continuous
 62
     7
370
    25
100
AcDbLine
 10
164.3950044656
 20
202.1244387136
 30
0.0
 11
114.3950037205
 21
202.1244387136
 31
0.0
  0
LINE
  5
C6
330
1F
100
AcDbEntity
  8
0
  6
Continuous
 62
     1
370
    25
100
AcDbLine
 10
184.2784862512
 20
312.7981959835
 30
0.0
 11
94.5115219349
 21
312.7981959835
 31
0.0
  0
LINE
  5
C7
330
1F
100
AcDbEntity
  8
0
  6
Continuous
 62
     1
370
    25
100
AcDbLine
 10
184.3950058812
 20
313.4708679274
 30
0.0
 11
94.3950023049
 21
313.4708679274
 31
0.0
  0
LINE
  5
C8
330
1F
100
AcDbEntity
  8
0
  6
Continuous
 62
     1
370
    25
100
AcDbLine
 10
164.5115203702
 20
257.4506844387
 30
0.0
 11
114.2784878159
 21
257.4506844387
 31
0.0
  0
LINE
  5
C9
330
1F
100
AcDbEntity
  8
0
  6
Continuous
 62
     1
370
    25
100
AcDbLine
 10
164.3950044656
 20
256.7780124948
 30
0.0
 11
114.3950037205
 21
256.7780124948
 31
0.0
  0
ARC
  5
CA
330
1F
100
AcDbEntity
  8
0
  6
Continuous
 62
     7
370
    25
100
AcDbCircle
 10
96.395004093
 20
-106.7550943496
 30
0.0
 40
2.000000000000003
100
AcDbArc
 50
160.3461759419
 51
180.0
  0
ARC
  5
CB
330
1F
100
AcDbEntity
  8
0
  6
Continuous
 62
     7
370
    25
100
AcDbCircle
 10
182.395004093
 20
-106.7550943496
 30
0.0
 40
2.000000000000043
100
AcDbArc
 50
0.0
 51
19.6538240581
  0
LINE
  5
CC
330
1F
100
AcDbEntity
  8
0
  6
Continuous
 62
     7
370
    25
100
AcDbLine
 10
94.3950023049
 20
-106.7550943742
 30
0.0
 11
94.3950023049
 21
-185.4086702267
 31
0.0
  0
LINE
  5
CD
330
1F
100
AcDbEntity
  8
0
  6
Continuous
 62
     7
370
    25
100
AcDbLine
 10
184.3950058812
 20
-185.4086702267
 30
0.0
 11
184.3950058812
 21
-106.7550943742
 31
0.0
  0
LINE
  5
CE
330
1F
100
AcDbEntity
  8
0
  6
Continuous
 62
     7
370
    25
100
AcDbLine
 10
184.2784862512
 20
-106.0824224303
 30
0.0
 11
164.5115203702
 21
-50.7349108854
 31
0.0
  0
LINE
  5
CF
330
1F
100
AcDbEntity
  8
0
  6
Continuous
 62
     7
370
    25
100
AcDbLine
 10
114.2784878159
 20
-50.7349108854
 30
0.0
 11
94.5115219349
 21
-106.0824224303
 31
0.0
  0
ARC
  5
D0
330
1F
100
AcDbEntity
  8
0
  6
Continuous
 62
     7
370
    25
100
AcDbCircle
 10
112.395004093
 20
-50.0622393517
 30
0.0
 40
2.000000000000003
100
AcDbArc
 50
340.3461759419
 51
0.0
  0
ARC
  5
D1
330
1F
100
AcDbEntity
  8
0
  6
Continuous
 62
     7
370
    25
100
AcDbCircle
 10
166.395004093
 20
-50.0622393517
 30
0.0
 40
2.000000000000016
100
AcDbArc
 50
180.0
 51
199.6538240581
  0
LINE
  5
D2
330
1F
100
AcDbEntity
  8
0
  6
Continuous
 62
     7
370
    25
100
AcDbLine
 10
114.3950037205
 20
4.5913348397
 30
0.0
 11
114.3950037205
 21
-50.0622389415
 31
0.0
  0
LINE
  5
D3
330
1F
100
AcDbEntity
  8
0
  6
Continuous
 62
     7
370
    25
100
AcDbLine
 10
164.3950044656
 20
-50.0622389415
 30
0.0
 11
164.3950044656
 21
4.5913348397
 31
0.0
  0
LINE
  5
D4
330
1F
100
AcDbEntity
  8
0
  6
Continuous
 62
     7
370
    25
100
AcDbLine
 10
94.3950023049
 20
-185.4086702267
 30
0.0
 11
184.3950058812
 21
-185.4086702267
 31
0.0
  0
LINE
  5
D5
330
1F
100
AcDbEntity
  8
0
  6
Continuous
 62
     7
370
    25
100
AcDbLine
 10
114.3950037205
 20
4.5913348397
 30
0.0
 11
164.3950044656
 21
4.5913348397
 31
0.0
  0
LINE
  5
D6
330
1F
100
AcDbEntity
  8
0
  6
Continuous
 62
     1
370
    25
100
AcDbLine
 10
94.5115219349
 20
-106.0824224303
 30
0.0
 11
184.2784862512
 21
-106.0824224303
 31
0.0
  0
LINE
  5
D7
330
1F
100
AcDbEntity
  8
0
  6
Continuous
 62
     1
370
    25
100
AcDbLine
 10
94.3950023049
 20
-106.7550943742
 30
0.0
 11
184.3950058812
 21
-106.7550943742
 31
0.0
  0
LINE
  5
D8
330
1F
100
AcDbEntity
  8
0
  6
Continuous
 62
     1
370
    25
100
AcDbLine
 10
114.2784878159
 20
-50.7349108854
 30
0.0
 11
164.5115203702
 21
-50.7349108854
 31
0.0
  0
LINE
  5
D9
330
1F
100
AcDbEntity
  8
0
  6
Continuous
 62
     1
370
    25
100
AcDbLine
 10
114.3950037205
 20
-50.0622389415
 30
0.0
 11
164.3950044656
 21
-50.0622389415
 31
0.0
  0
LINE
  5
DA
330
1F
100
AcDbEntity
  8
0
  6
Continuous
 62
     7
370
    25
100
AcDbLine
 10
361.0371863345
 20
-41.0643636597
 30
0.0
 11
305.4207094846
 21
-8.9576549847
 31
0.0
  0
LINE
  5
DB
330
1F
100
AcDbEntity
  8
0
  6
Continuous
 62
     7
370
    25
100
AcDbLine
 10
260.4243652295
 20
-86.9020533407
 30
0.0
 11
316.0408420794
 21
-119.0087620157
 31
0.0
  0
SPLINE
  5
DC
330
1F
100
AcDbEntity
  8
0
  6
Continuous
 62
     7
370
    25
100
AcDbSpline
210
0.0
220
0.0
230
1.0
 70
     8
 71
     3
 72
    13
 73
     9
 74
     0
 42
0.000000001
 43
0.00000001
 40
0.0
 40
0.0
 40
0.0
 40
0.0
 40
0.0495723511054275
 40
0.263054936180643
 40
0.4751899916946604
 40
0.6861020878393745
 40
0.8960443337378605
 40
0.9999999999999999
 40
0.9999999999999999
 40
0.9999999999999999
 40
0.9999999999999999
 10
366.3573066308796
 20
-45.94022808291462
 30
0.0
 10
366.2867224240329
 20
-45.83607633514015
 30
0.0
 10
365.9121683911217
 20
-45.28339665074013
 30
0.0
 10
365.1423182317928
 20
-44.38701373152685
 30
0.0
 10
364.0515299504235
 20
-43.26179843057609
 30
0.0
 10
362.8702229002162
 20
-42.27100115692514
 30
0.0
 10
361.837938373674
 20
-41.5250851305374
 30
0.0
 10
361.1734615686286
 20
-41.1581500454022
 30
0.0
 10
360.9534023509398
 20
-41.03662970464038
 30
0.0
  0
SPLINE
  5
DD
330
1F
100
AcDbEntity
  8
0
  6
Continuous
 62
     7
370
    25
100
AcDbSpline
210
0.0
220
0.0
230
1.0
 70
     8
 71
     3
 72
    13
 73
     9
 74
     0
 42
0.000000001
 43
0.00000001
 40
0.0
 40
0.0
 40
0.0
 40
0.0
 40
0.1063391432560042
 40
0.3016900800902637
 40
0.497100576860982
 40
0.6929609969703105
 40
0.8896128012848217
 40
1.0
 40
1.0
 40
1.0
 40
1.0
 10
315.900396926318
 20
-118.9064072699666
 30
0.0
 10
316.135932270619
 20
-119.0489550612591
 30
0.0
 10
316.8041591785148
 20
-119.4533710952323
 30
0.0
 10
317.9812685671305
 20
-119.9843915607835
 30
0.0
 10
319.4182320550742
 20
-120.5085735658293
 30
0.0
 10
320.9185174775022
 20
-120.8936247389436
 30
0.0
 10
322.236473235214
 20
-121.1334386422629
 30
0.0
 10
323.0690357910491
 20
-121.192277366689
 30
0.0
 10
323.3683601354709
 20
-121.2134311676762
 30
0.0
  0
LINE
  5
DE
330
1F
100
AcDbEntity
  8
0
  6
Continuous
 62
     7
370
    25
100
AcDbLine
 10
322.970530764
 20
-121.1945442832
 30
0.0
 11
369.1730684327
 21
-125.7823198082
 31
0.0
  0
LINE
  5
DF
330
1F
100
AcDbEntity
  8
0
  6
Continuous
 62
     7
370
    25
100
AcDbLine
 10
393.4733719725
 20
-83.6883990654
 30
0.0
 11
366.3954337237
 21
-45.9722556227
 31
0.0
  0
LINE
  5
E0
330
1F
100
AcDbEntity
  8
0
  6
Continuous
 62
     7
370
    25
100
AcDbLine
 10
429.7718131486
 20
-103.8374051729
 30
0.0
 11
392.4855683815
 21
-82.312514239
 31
0.0
  0
LINE
  5
E1
330
1F
100
AcDbEntity
  8
0
  6
Continuous
 62
     7
370
    25
100
AcDbLine
 10
367.4876008142
 20
-125.6149576013
 30
0.0
 11
404.7738455814
 21
-147.1398485351
 31
0.0
  0
LWPOLYLINE
  5
E2
330
1F
100
AcDbEntity
  8
0
  6
Continuous
 62
     7
370
    25
100
AcDbPolyline
 90
      107
 70
   128
 43
0.0
 10
251.1027309393
 20
-66.2990374087
 10
251.1586150262
 20
-64.090018677
 10
251.3260723579
 20
-61.824235776
 10
251.6045128784
 20
-59.5096489859
 10
251.9929566735
 20
-57.1543888937
 10
252.4900445074
 20
-54.7667257861
 10
253.0940272858
 20
-52.3550481651
 10
253.8027818612
 20
-49.9278281486
 10
254.6138215697
 20
-47.4935895318
 10
255.5242962304
 20
-45.060884213
 10
256.5310105856
 20
-42.6382534114
 10
257.6304242999
 20
-40.2342109374
 10
258.8186783025
 20
-37.8572006089
 10
260.0915974212
 20
-35.5155688748
 10
261.4447101389
 20
-33.2175442845
 10
262.8732643983
 20
-30.9711994661
 10
264.3722434073
 20
-28.7844191885
 10
265.9363814442
 20
-26.6648881957
 10
267.5601836135
 20
-24.6200524248
 10
269.2379469198
 20
-22.6570916311
 10
270.9637773897
 20
-20.7829034205
 10
272.731613121
 20
-19.0040716921
 10
274.5352453562
 20
-17.3268392638
 10
276.36833758
 20
-15.7571029306
 10
278.2244525197
 20
-14.3003765853
 10
280.0970692677
 20
-12.9617722078
 10
281.9796106107
 20
-11.7459932144
 10
283.8654641034
 20
-10.6573131663
 10
285.7480054464
 20
-9.69955619
 10
287.6206221944
 20
-8.8760832914
 10
289.4767371342
 20
-8.1897849429
 10
291.3098293579
 20
-7.6430780443
 10
293.1134615931
 20
-7.2378810196
 10
294.8812973244
 20
-6.9756130586
 10
296.6071277943
 20
-6.8571998223
 10
298.2848911006
 20
-6.883056335
 10
299.9086932699
 20
-7.0530900276
 10
301.4728313068
 20
-7.366705683
 10
302.9718103158
 20
-7.8228016354
 10
304.4003645752
 20
-8.4197728138
 10
305.7534772929
 20
-9.1555267142
 10
307.0263964116
 20
-10.0274773169
 10
308.2146504142
 20
-11.0325587763
 10
309.3140641285
 20
-12.1672451947
 10
310.3207784837
 20
-13.4275483427
 10
311.2312531444
 20
-14.8090419939
 10
312.0422928529
 20
-16.3068740953
 10
312.7510474283
 20
-17.9157834972
 10
313.3550302067
 20
-19.6301174456
 10
313.8521180406
 20
-21.4438551565
 10
314.2405618357
 20
-23.3506275892
 10
314.5190023562
 20
-25.3437337973
 10
314.6864596879
 20
-27.4161745785
 10
314.7423437749
 20
-29.5606709168
 10
314.6864596879
 20
-31.7696896485
 10
314.5190023562
 20
-34.0354725494
 10
314.2405618357
 20
-36.3500593396
 10
313.8521180406
 20
-38.7053194318
 10
313.3550302067
 20
-41.0929825394
 10
312.7510474283
 20
-43.5046601603
 10
312.0422928529
 20
-45.9318801768
 10
311.2312531444
 20
-48.3661187936
 10
310.3207784837
 20
-50.7988241125
 10
309.3140641285
 20
-53.2214549141
 10
308.2146504142
 20
-55.625497388
 10
307.0263964116
 20
-58.0025077165
 10
305.7534772929
 20
-60.3441394506
 10
304.4003645752
 20
-62.642164041
 10
302.9718103158
 20
-64.8885088594
 10
301.4728313068
 20
-67.0752891369
 10
299.9086932699
 20
-69.1948201297
 10
298.2848911006
 20
-71.2396559007
 10
296.6071277943
 20
-73.2026166944
 10
294.8812973244
 20
-75.076804905
 10
293.1134615931
 20
-76.8556366333
 10
291.3098293579
 20
-78.5328690617
 10
289.4767371342
 20
-80.1026053948
 10
287.6206221944
 20
-81.5593317402
 10
285.7480054464
 20
-82.8979361177
 10
283.8654641034
 20
-84.1137151111
 10
281.9796106107
 20
-85.2023951592
 10
280.0970692677
 20
-86.1601521354
 10
278.2244525197
 20
-86.9836250341
 10
276.36833758
 20
-87.6699233826
 10
274.5352453562
 20
-88.2166302812
 10
272.731613121
 20
-88.6218273058
 10
270.9637773897
 20
-88.8840952669
 10
269.2379469198
 20
-89.0025085032
 10
267.5601836135
 20
-88.9766519905
 10
265.9363814442
 20
-88.8066182978
 10
264.3722434073
 20
-88.4930026424
 10
262.8732643983
 20
-88.0369066901
 10
261.4447101389
 20
-87.4399355117
 10
260.0915974212
 20
-86.7041816112
 10
258.8186783025
 20
-85.8322310086
 10
257.6304242999
 20
-84.8271495492
 10
256.5310105856
 20
-83.6924631308
 10
255.5242962304
 20
-82.4321599828
 10
254.6138215697
 20
-81.0506663316
 10
253.8027818612
 20
-79.5528342302
 10
253.0940272858
 20
-77.9439248283
 10
252.4900445074
 20
-76.2295908799
 10
251.9929566735
 20
-74.4158531689
 10
251.6045128784
 20
-72.5090807363
 10
251.3260723579
 20
-70.5159745282
 10
251.1586150262
 20
-68.443533747
 10
251.1027309393
 20
-66.2990374087
  0
LWPOLYLINE
  5
E3
330
1F
100
AcDbEntity
  8
0
  6
Continuous
 62
     7
370
    25
100
AcDbPolyline
 90
       97
 70
   128
 43
0.0
 10
256.901007232
 20
-62.9517637536
 10
256.9567227315
 20
-60.9543208016
 10
257.1236268858
 20
-58.901105668
 10
257.4010031984
 20
-56.8009111379
 10
257.7876689233
 20
-54.6627284333
 10
258.2819671627
 20
-52.4957141323
 10
258.8817800373
 20
-50.3091475846
 10
259.5845365893
 20
-48.11239441
 10
260.3872312218
 20
-45.9148582106
 10
261.2864263322
 20
-43.7259501526
 10
262.2782694353
 20
-41.5550456214
 10
263.3585155531
 20
-39.4114378357
 10
264.522537752
 20
-37.3043074298
 10
265.76535085
 20
-35.2426768283
 10
267.0816338075
 20
-33.2353745058
 10
268.4657494835
 20
-31.2909977271
 10
269.9117722945
 20
-29.4178692023
 10
271.413509288
 20
-27.6240127548
 10
272.9645291183
 20
-25.9171107377
 10
274.5581910225
 20
-24.3044675344
 10
276.1876698455
 20
-22.7929920704
 10
277.8459886373
 20
-21.3891577016
 10
279.5260463127
 20
-20.0989771222
 10
281.2206479435
 20
-18.9279696668
 10
282.9225373571
 20
-17.8811516186
 10
284.6244267706
 20
-16.9630099752
 10
286.3190284014
 20
-16.1774720339
 10
287.9990860768
 20
-15.5278993102
 10
289.6574048687
 20
-15.0170795565
 10
291.2868836916
 20
-14.6471988173
 10
292.8805455959
 20
-14.4198391515
 10
294.4315654261
 20
-14.3359717901
 10
295.9333024196
 20
-14.3959596114
 10
297.3793252306
 20
-14.5995457358
 10
298.7634409066
 20
-14.9458565709
 10
300.0797238641
 20
-15.4334109393
 10
301.3225369621
 20
-16.0601200811
 10
302.486559161
 20
-16.823299063
 10
303.5668052788
 20
-17.7196812289
 10
304.5586483819
 20
-18.7454280887
 10
305.4578434923
 20
-19.8961475707
 10
306.2605381248
 20
-21.1669122744
 10
306.9632946768
 20
-22.5522800047
 10
307.5631075514
 20
-24.0463173483
 10
308.0574057908
 20
-25.6426270499
 10
308.4440715157
 20
-27.3343750112
 10
308.7214478283
 20
-29.1143176675
 10
308.8883519826
 20
-30.9748293664
 10
308.9440674821
 20
-32.9079445719
 10
308.8883519826
 20
-34.9053875239
 10
308.7214478283
 20
-36.9586026574
 10
308.4440715157
 20
-39.0587971875
 10
308.0574057908
 20
-41.1969798922
 10
307.5631075514
 20
-43.3639941932
 10
306.9632946768
 20
-45.5505607409
 10
306.2605381248
 20
-47.7473139154
 10
305.4578434923
 20
-49.9448501148
 10
304.5586483819
 20
-52.1337581729
 10
303.5668052788
 20
-54.3046627041
 10
302.486559161
 20
-56.4482704898
 10
301.3225369621
 20
-58.5554008956
 10
300.0797238641
 20
-60.6170314972
 10
298.7634409066
 20
-62.6243338196
 10
297.3793252306
 20
-64.5687105984
 10
295.9333024196
 20
-66.4418391232
 10
294.4315654261
 20
-68.2356955707
 10
292.8805455959
 20
-69.9425975878
 10
291.2868836916
 20
-71.555240791
 10
289.6574048687
 20
-73.0667162551
 10
287.9990860768
 20
-74.4705506238
 10
286.3190284014
 20
-75.7607312033
 10
284.6244267706
 20
-76.9317386587
 10
282.9225373571
 20
-77.9785567069
 10
281.2206479435
 20
-78.8966983503
 10
279.5260463127
 20
-79.6822362916
 10
277.8459886373
 20
-80.3318090152
 10
276.1876698455
 20
-80.842628769
 10
274.5581910225
 20
-81.2125095082
 10
272.9645291183
 20
-81.439869174
 10
271.413509288
 20
-81.5237365353
 10
269.9117722945
 20
-81.4637487141
 10
268.4657494835
 20
-81.2601625897
 10
267.0816338075
 20
-80.9138517546
 10
265.76535085
 20
-80.4262973861
 10
264.522537752
 20
-79.7995882443
 10
263.3585155531
 20
-79.0364092625
 10
262.2782694353
 20
-78.1400270966
 10
261.2864263322
 20
-77.1142802368
 10
260.3872312218
 20
-75.9635607548
 10
259.5845365893
 20
-74.6927960511
 10
258.8817800373
 20
-73.3074283207
 10
258.2819671627
 20
-71.8133909772
 10
257.7876689233
 20
-70.2170812755
 10
257.4010031984
 20
-68.5253333143
 10
257.1236268858
 20
-66.7453906579
 10
256.9567227315
 20
-64.8848789591
 10
256.901007232
 20
-62.9517637536
  0
LINE
  5
E4
330
1F
100
AcDbEntity
  8
0
  6
Continuous
 62
     7
370
    25
100
AcDbLine
 10
323.3380104533
 20
-121.2272383647
 30
0.0
 11
322.970530764
 21
-121.1945442832
 31
0.0
  0
LINE
  5
E5
330
1F
100
AcDbEntity
  8
0
  6
Continuous
 62
     7
370
    25
100
AcDbLine
 10
369.2569498809
 20
-125.7902935278
 30
0.0
 11
369.1730684327
 21
-125.7823198082
 31
0.0
  0
LWPOLYLINE
  5
E6
330
1F
100
AcDbEntity
  8
0
  6
Continuous
 62
     7
370
    25
100
AcDbPolyline
 90
       42
 70
   128
 43
0.0
 10
429.7718131486
 20
-103.8374051729
 10
430.1400304077
 20
-104.0628812293
 10
431.0624247241
 20
-104.7551578342
 10
431.8976369672
 20
-105.5785194145
 10
432.6403856102
 20
-106.5277593457
 10
433.2859765477
 20
-107.5968756141
 10
433.8303268038
 20
-108.7791096029
 10
434.2699948249
 20
-110.0669863995
 10
434.6022028703
 20
-111.4523630868
 10
434.8248475488
 20
-112.9264821668
 10
434.9365235265
 20
-114.4800227993
 10
434.9365235265
 20
-116.1031637297
 10
434.8248475488
 20
-117.7856427015
 10
434.6022028703
 20
-119.5168218557
 10
434.2699948249
 20
-121.2857577879
 10
433.8303268038
 20
-123.0812644765
 10
433.2859765477
 20
-124.8919918932
 10
432.6403856102
 20
-126.7064915921
 10
431.8976369672
 20
-128.5132908528
 10
431.0624247241
 20
-130.3009679629
 10
430.1400304077
 20
-132.0582183769
 10
429.1362860882
 20
-133.7739345605
 10
428.0575361835
 20
-135.4372691057
 10
426.9106025561
 20
-137.0377043104
 10
425.7027357809
 20
-138.5651228961
 10
424.4415716817
 20
-140.0098680807
 10
423.1350852323
 20
-141.3628051719
 10
421.7915355687
 20
-142.6153806877
 10
420.4194172566
 20
-143.7596748239
 10
419.0274053027
 20
-144.7884529704
 10
417.6243001254
 20
-145.6952126881
 10
416.2189728542
 20
-146.474218329
 10
414.8203085307
 20
-147.1205475138
 10
413.4371497199
 20
-147.6301130375
 10
412.0782414813
 20
-147.9996915957
 10
410.752174528
 20
-148.2269489933
 10
409.4673337781
 20
-148.3104470311
 10
408.2318417194
 20
-148.2496579494
 10
407.0535100069
 20
-148.0449665152
 10
405.939788096
 20
-147.6976677352
 10
404.8977164862
 20
-147.2099543044
 10
404.7738455814
 20
-147.1398485351
  0
LWPOLYLINE
  5
E7
330
1F
100
AcDbEntity
  8
0
  6
Continuous
 62
     1
370
    25
100
AcDbPolyline
 90
       55
 70
   128
 43
0.0
 10
361.0371863345
 20
-41.0643636597
 10
361.3699541428
 20
-41.2622353892
 10
362.6428732615
 20
-42.1341859918
 10
363.8311272641
 20
-43.1392674512
 10
364.9305409784
 20
-44.2739538696
 10
365.9372553336
 20
-45.5342570176
 10
366.8477299943
 20
-46.9157506688
 10
367.6587697028
 20
-48.4135827702
 10
368.3675242782
 20
-50.0224921721
 10
368.9715070566
 20
-51.7368261205
 10
369.4685948905
 20
-53.5505638315
 10
369.8570386856
 20
-55.4573362641
 10
370.1354792061
 20
-57.4504424722
 10
370.3029365378
 20
-59.5228832534
 10
370.3588206247
 20
-61.6673795917
 10
370.3029365378
 20
-63.8763983234
 10
370.1354792061
 20
-66.1421812244
 10
369.8570386856
 20
-68.4567680145
 10
369.4685948905
 20
-70.8120281067
 10
368.9715070566
 20
-73.1996912143
 10
368.3675242782
 20
-75.6113688353
 10
367.6587697028
 20
-78.0385888518
 10
366.8477299943
 20
-80.4728274686
 10
365.9372553336
 20
-82.9055327874
 10
364.9305409784
 20
-85.328163589
 10
363.8311272641
 20
-87.732206063
 10
362.6428732615
 20
-90.1092163915
 10
361.3699541428
 20
-92.4508481256
 10
360.0168414251
 20
-94.7488727159
 10
358.5882871657
 20
-96.9952175343
 10
357.0893081567
 20
-99.1819978119
 10
355.5251701198
 20
-101.3015288047
 10
353.9013679505
 20
-103.3463645756
 10
352.2236046442
 20
-105.3093253693
 10
350.4977741743
 20
-107.1835135799
 10
348.729938443
 20
-108.9623453083
 10
346.9263062078
 20
-110.6395777366
 10
345.093213984
 20
-112.2093140698
 10
343.2370990443
 20
-113.6660404151
 10
341.3644822963
 20
-115.0046447926
 10
339.4819409533
 20
-116.220423786
 10
337.5960874606
 20
-117.3091038341
 10
335.7135461176
 20
-118.2668608104
 10
333.8409293696
 20
-119.090333709
 10
331.9848144298
 20
-119.7766320575
 10
330.1517222061
 20
-120.3233389561
 10
328.3480899709
 20
-120.7285359808
 10
326.5802542396
 20
-120.9908039418
 10
324.8544237697
 20
-121.1092171781
 10
323.1766604634
 20
-121.0833606654
 10
321.5528582941
 20
-120.9133269728
 10
319.9887202572
 20
-120.5997113174
 10
318.4897412481
 20
-120.143615365
 10
317.0611869888
 20
-119.5466441866
 10
316.0408420794
 20
-119.0087620157
  0
LWPOLYLINE
  5
E8
330
1F
100
AcDbEntity
  8
0
  6
Continuous
 62
     1
370
    25
100
AcDbPolyline
 90
       46
 70
   128
 43
0.0
 10
366.3676194379
 20
-45.9336245398
 10
367.2500822495
 20
-47.2760962116
 10
368.059022518
 20
-48.7700497553
 10
368.7659437055
 20
-50.3747931695
 10
369.3683617822
 20
-52.0846881491
 10
369.864161503
 20
-53.8937298809
 10
370.2515990421
 20
-55.7955660545
 10
370.5293177979
 20
-57.7835116937
 10
370.6963404901
 20
-59.8505869882
 10
370.7520796973
 20
-61.9895307931
 10
370.6963404901
 20
-64.1928297167
 10
370.5293177979
 20
-66.452745307
 10
370.2515990421
 20
-68.7613381964
 10
369.864161503
 20
-71.1105002311
 10
369.3683617822
 20
-73.4919801358
 10
368.7659437055
 20
-75.8974122218
 10
368.059022518
 20
-78.3183494659
 10
367.2500822495
 20
-80.7462855633
 10
366.341965178
 20
-83.1726929497
 10
365.3378586591
 20
-85.5890486562
 10
364.2412898571
 20
-87.9868677688
 10
363.0561152086
 20
-90.3577231996
 10
361.7864914466
 20
-92.6932913118
 10
360.4368808686
 20
-94.9853640877
 10
359.0120249952
 20
-97.2258962749
 10
357.5169274475
 20
-99.4070137495
 10
355.9568394593
 20
-101.5210553407
 10
354.3372414382
 20
-103.5605956426
 10
352.6638232086
 20
-105.5184746705
 10
350.9424616217
 20
-107.3878077448
 10
349.1792027747
 20
-109.1620383417
 10
347.3802402786
 20
-110.8349263034
 10
345.5518941851
 20
-112.4005965066
 10
343.7005856325
 20
-113.8535534984
 10
341.8328174184
 20
-115.1886927113
 10
339.9551503749
 20
-116.401320186
 10
338.0741798251
 20
-117.4871813711
 10
336.1965127816
 20
-118.4424621197
 10
334.3287445675
 20
-119.2638021848
 10
332.4774360149
 20
-119.9483205505
 10
330.6490899214
 20
-120.4936138137
 10
328.8501274253
 20
-120.8977637389
 10
327.0868685783
 20
-121.1593484733
 10
325.3655069914
 20
-121.2774571833
 10
323.6920887618
 20
-121.2516657176
 10
323.3380104533
 20
-121.2272383647
  0
LWPOLYLINE
  5
E9
330
1F
100
AcDbEntity
  8
0
  6
Continuous
 62
     1
370
    25
100
AcDbPolyline
 90
       35
 70
   128
 43
0.0
 10
393.4733719725
 20
-83.6883990654
 10
393.590445381
 20
-83.8549917285
 10
394.2390445498
 20
-84.9290908321
 10
394.7859315194
 20
-86.1168346126
 10
395.227648931
 20
-87.4107135548
 10
395.561404556
 20
-88.8025474777
 10
395.7850871007
 20
-90.283536867
 10
395.8972833285
 20
-91.8443182007
 10
395.8972833285
 20
-93.4750240258
 10
395.7850871007
 20
-95.1653443668
 10
395.561404556
 20
-96.904592125
 10
395.227648931
 20
-98.6817720902
 10
394.7859315194
 20
-100.4856471004
 10
394.2390445498
 20
-102.3048131358
 10
393.590445381
 20
-104.1277688998
 10
392.844234111
 20
-105.942989962
 10
392.0051298698
 20
-107.738997578
 10
391.0784365749
 20
-109.5044392948
 10
390.0700139553
 20
-111.2281520672
 10
388.9862360632
 20
-112.8992394401
 10
387.83395703
 20
-114.5071331435
 10
386.6204610164
 20
-116.0416706545
 10
385.3534194074
 20
-117.4931488062
 10
384.0408440555
 20
-118.8523903239
 10
382.6910322922
 20
-120.1108044664
 10
381.3125188544
 20
-121.2604315091
 10
379.9140190846
 20
-122.2940044307
 10
378.5043746427
 20
-123.2049893796
 10
377.0924977348
 20
-123.9876269946
 10
375.6873146438
 20
-124.6369680464
 10
374.2977093408
 20
-125.1489090315
 10
372.9324675504
 20
-125.5202107747
 10
371.6002204862
 20
-125.7485263468
 10
370.3093915911
 20
-125.8324135599
 10
369.2569498809
 20
-125.7902935278
  0
LWPOLYLINE
  5
EA
330
1F
100
AcDbEntity
  8
0
  6
Continuous
 62
     1
370
    25
100
AcDbPolyline
 90
       38
 70
   128
 43
0.0
 10
392.9142387093
 20
-82.9095973289
 10
393.2517243304
 20
-83.268708927
 10
393.9944729733
 20
-84.2179488581
 10
394.6400639109
 20
-85.2870651265
 10
395.184414167
 20
-86.4692991154
 10
395.6240821881
 20
-87.7571759119
 10
395.9562902335
 20
-89.1425525992
 10
396.178934912
 20
-90.6166716793
 10
396.2906108897
 20
-92.1702123118
 10
396.2906108897
 20
-93.7933532422
 10
396.178934912
 20
-95.4758322139
 10
395.9562902335
 20
-97.2070113681
 10
395.6240821881
 20
-98.9759473004
 10
395.184414167
 20
-100.7714539889
 10
394.6400639109
 20
-102.5821814056
 10
393.9944729733
 20
-104.3966811046
 10
393.2517243304
 20
-106.2034803652
 10
392.4165120873
 20
-107.9911574754
 10
391.4941177709
 20
-109.7484078893
 10
390.4903734514
 20
-111.4641240729
 10
389.4116235467
 20
-113.1274586182
 10
388.2646899193
 20
-114.7278938229
 10
387.0568231441
 20
-116.2553124085
 10
385.7956590449
 20
-117.7000575931
 10
384.4891725955
 20
-119.0529946843
 10
383.1456229319
 20
-120.3055702001
 10
381.7735046198
 20
-121.4498643363
 10
380.3814926659
 20
-122.4786424828
 10
378.9783874886
 20
-123.3854022006
 10
377.5730602174
 20
-124.1644078415
 10
376.1743958939
 20
-124.8107370262
 10
374.791237083
 20
-125.3203025499
 10
373.4323288445
 20
-125.6898811082
 10
372.1062618912
 20
-125.9171385057
 10
370.8214211413
 20
-126.0006365435
 10
369.5859290826
 20
-125.9398474619
 10
368.4075973701
 20
-125.7351560277
 10
368.2190310527
 20
-125.6875873498
  0
ENDSEC
  0
SECTION
  2
OBJECTS
  0
DICTIONARY
  5
C
330
0
100
AcDbDictionary
281
     1
  3
ACAD_GROUP
350
D
  3
ACAD_LAYOUT
350
1A
  3
ACAD_MLINESTYLE
350
17
  3
ACAD_PLOTSETTINGS
350
19
  3
ACAD_PLOTSTYLENAME
350
E
  3
ACAD_SCALELIST
350
47
  0
DICTIONARY
  5
D
102
{ACAD_REACTORS
330
C
102
}
330
C
100
AcDbDictionary
281
     1
  0
DICTIONARY
  5
1A
102
{ACAD_REACTORS
330
C
102
}
330
C
100
AcDbDictionary
281
     1
  3
Layout1
350
1E
  3
Layout2
350
26
  3
Model
350
22
  0
DICTIONARY
  5
17
102
{ACAD_REACTORS
330
C
102
}
330
C
100
AcDbDictionary
281
     1
  3
Standard
350
18
  0
DICTIONARY
  5
19
102
{ACAD_REACTORS
330
C
102
}
330
C
100
AcDbDictionary
281
     1
  0
ACDBDICTIONARYWDFLT
  5
E
102
{ACAD_REACTORS
330
C
102
}
330
C
100
AcDbDictionary
281
     1
  3
Normal
350
F
100
AcDbDictionaryWithDefault
340
F
  0
DICTIONARY
  5
47
102
{ACAD_REACTORS
330
C
102
}
330
C
100
AcDbDictionary
281
     1
  3
A0
350
48
  3
A1
350
49
  3
A2
350
4A
  3
A3
350
4B
  3
A4
350
4C
  3
A5
350
4D
  3
A6
350
4E
  3
A7
350
4F
  3
A8
350
50
  3
A9
350
51
  3
B0
350
52
  3
B1
350
53
  3
B2
350
54
  3
B3
350
55
  3
B4
350
56
  3
B5
350
57
  3
B6
350
58
  3
B7
350
59
  3
B8
350
5A
  3
B9
350
5B
  3
C0
350
5C
  3
C1
350
5D
  3
C2
350
5E
  3
C3
350
5F
  3
C4
350
60
  3
C5
350
61
  3
C6
350
62
  3
C7
350
63
  3
C8
350
64
  3
C9
350
65
  3
D0
350
66
  3
D1
350
67
  3
D2
350
68
  0
LAYOUT
  5
1E
102
{ACAD_REACTORS
330
1A
102
}
330
1A
100
AcDbPlotSettings
  1

  2
none_device
  4

  6

 40
0.0
 41
0.0
 42
0.0
 43
0.0
 44
0.0
 45
0.0
 46
0.0
 47
0.0
 48
0.0
 49
0.0
140
0.0
141
0.0
142
1.0
143
1.0
 70
   688
 72
     1
 73
     0
 74
     5
  7

 75
    16
147
1.0
148
0.0
149
0.0
100
AcDbLayout
  1
Layout1
 70
     1
 71
     1
 10
0.0
 20
0.0
 11
420.0
 21
297.0
 12
0.0
 22
0.0
 32
0.0
 14
1.0000000000E+20
 24
1.0000000000E+20
 34
1.0000000000E+20
 15
-1.0000000000E+20
 25
-1.0000000000E+20
 35
-1.0000000000E+20
146
0.0
 13
0.0
 23
0.0
 33
0.0
 16
1.0
 26
0.0
 36
0.0
 17
0.0
 27
1.0
 37
0.0
 76
     0
330
1B
  0
LAYOUT
  5
26
102
{ACAD_REACTORS
330
1A
102
}
330
1A
100
AcDbPlotSettings
  1

  2
none_device
  4

  6

 40
0.0
 41
0.0
 42
0.0
 43
0.0
 44
0.0
 45
0.0
 46
0.0
 47
0.0
 48
0.0
 49
0.0
140
0.0
141
0.0
142
1.0
143
1.0
 70
   688
 72
     1
 73
     0
 74
     5
  7

 75
    16
147
1.0
148
0.0
149
0.0
100
AcDbLayout
  1
Layout2
 70
     1
 71
     2
 10
0.0
 20
0.0
 11
0.0
 21
0.0
 12
0.0
 22
0.0
 32
0.0
 14
0.0
 24
0.0
 34
0.0
 15
0.0
 25
0.0
 35
0.0
146
0.0
 13
0.0
 23
0.0
 33
0.0
 16
1.0
 26
0.0
 36
0.0
 17
0.0
 27
1.0
 37
0.0
 76
     0
330
23
  0
LAYOUT
  5
22
102
{ACAD_REACTORS
330
1A
102
}
330
1A
100
AcDbPlotSettings
  1

  2
none_device
  4
Letter_(8.50_x_11.00_Inches)
  6

 40
6.35
 41
6.35
 42
6.35000508
 43
6.35000508
 44
215.9
 45
279.4
 46
0.0
 47
0.0
 48
0.0
 49
0.0
140
0.0
141
0.0
142
1.0
143
1.0
 70
  1712
 72
     1
 73
     0
 74
     0
  7

 75
     0
147
1.0
148
0.0
149
0.0
100
AcDbLayout
  1
Model
 70
     1
 71
     0
 10
0.0
 20
0.0
 11
279.4
 21
215.9
 12
0.0
 22
0.0
 32
0.0
 14
0.0
 24
0.0
 34
0.0
 15
279.4
 25
215.9
 35
0.0
146
0.0
 13
0.0
 23
0.0
 33
0.0
 16
1.0
 26
0.0
 36
0.0
 17
0.0
 27
1.0
 37
0.0
 76
     0
330
1F
331
29
  0
MLINESTYLE
  5
18
102
{ACAD_REACTORS
330
17
102
}
330
17
100
AcDbMlineStyle
  2
Standard
 70
     0
  3

 62
   256
 51
90.0
 52
90.0
 71
     2
 49
0.5
 62
   256
  6
BYLAYER
 49
-0.5
 62
   256
  6
BYLAYER
  0
ACDBPLACEHOLDER
  5
F
102
{ACAD_REACTORS
330
E
102
}
330
E
  0
SCALE
  5
48
102
{ACAD_REACTORS
330
47
102
}
330
47
100
AcDbScale
 70
     0
300
1:1
140
1.0
141
1.0
290
     1
  0
SCALE
  5
49
102
{ACAD_REACTORS
330
47
102
}
330
47
100
AcDbScale
 70
     0
300
1:2
140
1.0
141
2.0
290
     0
  0
SCALE
  5
4A
102
{ACAD_REACTORS
330
47
102
}
330
47
100
AcDbScale
 70
     0
300
1:4
140
1.0
141
4.0
290
     0
  0
SCALE
  5
4B
102
{ACAD_REACTORS
330
47
102
}
330
47
100
AcDbScale
 70
     0
300
1:5
140
1.0
141
5.0
290
     0
  0
SCALE
  5
4C
102
{ACAD_REACTORS
330
47
102
}
330
47
100
AcDbScale
 70
     0
300
1:8
140
1.0
141
8.0
290
     0
  0
SCALE
  5
4D
102
{ACAD_REACTORS
330
47
102
}
330
47
100
AcDbScale
 70
     0
300
1:10
140
1.0
141
10.0
290
     0
  0
SCALE
  5
4E
102
{ACAD_REACTORS
330
47
102
}
330
47
100
AcDbScale
 70
     0
300
1:16
140
1.0
141
16.0
290
     0
  0
SCALE
  5
4F
102
{ACAD_REACTORS
330
47
102
}
330
47
100
AcDbScale
 70
     0
300
1:20
140
1.0
141
20.0
290
     0
  0
SCALE
  5
50
102
{ACAD_REACTORS
330
47
102
}
330
47
100
AcDbScale
 70
     0
300
1:30
140
1.0
141
30.0
290
     0
  0
SCALE
  5
51
102
{ACAD_REACTORS
330
47
102
}
330
47
100
AcDbScale
 70
     0
300
1:40
140
1.0
141
40.0
290
     0
  0
SCALE
  5
52
102
{ACAD_REACTORS
330
47
102
}
330
47
100
AcDbScale
 70
     0
300
1:50
140
1.0
141
50.0
290
     0
  0
SCALE
  5
53
102
{ACAD_REACTORS
330
47
102
}
330
47
100
AcDbScale
 70
     0
300
1:100
140
1.0
141
100.0
290
     0
  0
SCALE
  5
54
102
{ACAD_REACTORS
330
47
102
}
330
47
100
AcDbScale
 70
     0
300
2:1
140
2.0
141
1.0
290
     0
  0
SCALE
  5
55
102
{ACAD_REACTORS
330
47
102
}
330
47
100
AcDbScale
 70
     0
300
4:1
140
4.0
141
1.0
290
     0
  0
SCALE
  5
56
102
{ACAD_REACTORS
330
47
102
}
330
47
100
AcDbScale
 70
     0
300
8:1
140
8.0
141
1.0
290
     0
  0
SCALE
  5
57
102
{ACAD_REACTORS
330
47
102
}
330
47
100
AcDbScale
 70
     0
300
10:1
140
10.0
141
1.0
290
     0
  0
SCALE
  5
58
102
{ACAD_REACTORS
330
47
102
}
330
47
100
AcDbScale
 70
     0
300
100:1
140
100.0
141
1.0
290
     0
  0
SCALE
  5
59
102
{ACAD_REACTORS
330
47
102
}
330
47
100
AcDbScale
 70
     0
300
1/128" = 1'-0"
140
0.0078125
141
12.0
290
     0
  0
SCALE
  5
5A
102
{ACAD_REACTORS
330
47
102
}
330
47
100
AcDbScale
 70
     0
300
1/64" = 1'-0"
140
0.015625
141
12.0
290
     0
  0
SCALE
  5
5B
102
{ACAD_REACTORS
330
47
102
}
330
47
100
AcDbScale
 70
     0
300
1/32" = 1'-0"
140
0.03125
141
12.0
290
     0
  0
SCALE
  5
5C
102
{ACAD_REACTORS
330
47
102
}
330
47
100
AcDbScale
 70
     0
300
1/16" = 1'-0"
140
0.0625
141
12.0
290
     0
  0
SCALE
  5
5D
102
{ACAD_REACTORS
330
47
102
}
330
47
100
AcDbScale
 70
     0
300
3/32" = 1'-0"
140
0.09375
141
12.0
290
     0
  0
SCALE
  5
5E
102
{ACAD_REACTORS
330
47
102
}
330
47
100
AcDbScale
 70
     0
300
1/8" = 1'-0"
140
0.125
141
12.0
290
     0
  0
SCALE
  5
5F
102
{ACAD_REACTORS
330
47
102
}
330
47
100
AcDbScale
 70
     0
300
3/16" = 1'-0"
140
0.1875
141
12.0
290
     0
  0
SCALE
  5
60
102
{ACAD_REACTORS
330
47
102
}
330
47
100
AcDbScale
 70
     0
300
1/4" = 1'-0"
140
0.25
141
12.0
290
     0
  0
SCALE
  5
61
102
{ACAD_REACTORS
330
47
102
}
330
47
100
AcDbScale
 70
     0
300
3/8" = 1'-0"
140
0.375
141
12.0
290
     0
  0
SCALE
  5
62
102
{ACAD_REACTORS
330
47
102
}
330
47
100
AcDbScale
 70
     0
300
1/2" = 1'-0"
140
0.5
141
12.0
290
     0
  0
SCALE
  5
63
102
{ACAD_REACTORS
330
47
102
}
330
47
100
AcDbScale
 70
     0
300
3/4" = 1'-0"
140
0.75
141
12.0
290
     0
  0
SCALE
  5
64
102
{ACAD_REACTORS
330
47
102
}
330
47
100
AcDbScale
 70
     0
300
1" = 1'-0"
140
1.0
141
12.0
290
     0
  0
SCALE
  5
65
102
{ACAD_REACTORS
330
47
102
}
330
47
100
AcDbScale
 70
     0
300
1-1/2" = 1'-0"
140
1.5
141
12.0
290
     0
  0
SCALE
  5
66
102
{ACAD_REACTORS
330
47
102
}
330
47
100
AcDbScale
 70
     0
300
3" = 1'-0"
140
3.0
141
12.0
290
     0
  0
SCALE
  5
67
102
{ACAD_REACTORS
330
47
102
}
330
47
100
AcDbScale
 70
     0
300
6" = 1'-0"
140
6.0
141
12.0
290
     0
  0
SCALE
  5
68
102
{ACAD_REACTORS
330
47
102
}
330
47
100
AcDbScale
 70
     0
300
1'-0" = 1'-0"
140
12.0
141
12.0
290
     0
  0
ENDSEC
  0
EOF
